şükela:  tümü | bugün
  • süleyman saba adlı şarkısında attığı müthiş solodur.

    solo

    david gilmour'un şuan bir yerlerde hayretler içinde bu soloyu defalarca dinlediğini hissedebiliyorum.

    buyrun bu da tab'a dönüştürülmüş hali. bizzat kendim çıkardım. artık sahillerde akdeniz akşamları falan çalmak yok! bizzat bu soloyu atacağız.

    e--------------------------------------------------
    a--------------------------------------------------
    d--------------------------------------------------
    g---/14---14-14-15-14-14--12---14-15-15-15-14------
    b--------------------------------------------------
    e--------------------------------------------------

    e--------------------------------------------------
    a--------------------------------------------------
    d--------------------------------------------------
    g----14--14---14-----------------------------------
    b------15--15----11-12-13--15-15-15-15-14----------
    e--------------------------------------------------

    e----------------------------------------------------------
    a----------------------------------------------------------
    d----------------------------------------------------------
    g----------------------------------------------------------
    b----------------------------------------------------------
    e----15--15--15--15--14--17--17--17--17--18--18--18--18--17--17--17--17--15-

    e-----------------------------------------------
    a-----------------------------------------------
    d-----------------------------------16---16----16----16------
    g---14-15---15-15-14-14-12-----15----15----15----14----
    b----------14-------------------------------------
    e-----------------------------------------------
  • yakında konser de verir
  • dinlerken gaza gelip kahve fincanını duvara fırlattım yok böyle bir solo!
  • (bkz: killa ali)*

    (bkz: başkası adına utanmak)

    bir de ne alakaysa iki farklı gitarla atıyor soloyu allah iyiliğini versin.. şarkı tümden facia bu arada, dava falan açılsın kaldırılsın abi bu şarkı. bu ne saçmalık..
  • (bkz: yaran sololar)
  • solo solo sooo looooo. harika bi soloydu malmsteen halt yemis.
  • ali eceye tüm bakış açımı değiştiren kayıt olmuştur.

    eğer burayı okuyasan alicim çok güzel olmuş, sakın bir daha yapma.
  • amatör birisi için gayet güzel bir kayıt. beğendim.
  • izlerken les paul ve strat’a acidigim solodur. abi hobi olarak yine yap da yani...
  • bugün de başkası adına utandık çok şükür