şükela:  tümü | bugün
4 entry daha
  • kendisi pink floyd'un waters'sız dönemine ait high hopes'un habercisi olan bir parçadır. 4 dakika 30 saniyelik solosu aşağıdaki gibidir:

    g
    e--------------------
    b--------------------
    g--------------------
    d--------------------
    a--------------------
    e---0-2b(3)--2vvvvv--

    e5 c
    e-----------------------------------------12-------------------
    b---15b(17)vvvvvvv---15p12-(13)r15vvvvvv-------12vvvvvvvvvv----
    g--------------------------------------------------------------
    d--------------------------------------------------------------
    a--------------------------------------------------------------
    e--------------------------------------------------------------

    e--------------------------------------------------------------------------
    b--------------------------------------12-----15-----15>(17)>15-vvvvvvvvv--
    g--------0-2-2>(3)>2>0-----------------------------------------------------
    d-----\2----------------2-vvvvvvvv-----------------------------------------
    a--------------------------------------------------------------------------
    e--------------------------------------------------------------------------

    d g
    e-------------------------------------------------------------------------
    b-------15b(17)===========>15--15-15vvvvvvvv--12---------15-vvvvvvvvvv----
    g---------------------------------------------------14--------------------
    d-------------------------------------------------------------------------
    a-------------------------------------------------------------------------
    e-------------------------------------------------------------------------

    e5
    e----------------------------------------------
    b----------------------------------------------
    g---2b(4)r2vvvvp0----0-------------------------
    d------------------2----2-(0)--2vvvvvvvvv------
    a----------------------------------------------
    e----------------------------------------------

    b
    e----------------------------------------------------------------------------
    b----------------------------------------------------------------------------
    g----------12-------14-------------12--------14>(16)vvvvv------------12------
    d-----/14-------14--------14vvvvv-------14------------------------14------14v
    a----------------------------------------------------------------------------
    e----------------------------------------------------------------------------

    d g
    e--------------------------------------------------------------------
    b---------------------------------------------------3----------------
    g-----------------------------------------------2---2----------------
    d------9\7--5vvvvv--5>7---5vvvvvv---5\4----2>0--0---0----------------
    a-------------------------------------------------------2--0---------
    e--------------------------------------------------------------3-----

    e c e5
    e-----3/5---3---3--0--2----0-------------------------------------------------
    b-----3/5---3---3--0--2----0-------------------------------------------------
    g----------------------------------------------------------------------------
    d----------------------------------------------------------------------------
    a----------------------------------------0--2-2<(3)=====>2--2--3>2>0--0------
    e-----------------------------0----0---3-----------------------------3---0vvv

    d e5 d g
    e----------------------------------------------------------------------------
    b--15>(17)-------------15>12-15vvvvvvvvvv---15-------------------------------
    g-------------------------------------------------12---11----11------12vvvvvv
    d-------------------------------------------------12---12----12--12--12vvvvvv
    a----------------------------------------------------------------------------
    e----------------------------------------------------------------------------

    e5
    e----------------------------------------------------------------------------
    b-------15>12----------------------------------------------------------------
    g---------------12----12---12>11--11----/7----7vvvvvv--9===>(11)>9>7-9vvvvv--
    d----------------------------------------------------------------------------
    a----------------------------------------------------------------------------
    e----------------------------------------------------------------------------

    c e5 d
    e----------------------------------------------------------------------------
    b-----"7"---8---8>(10)vvvvvvv>8>7--------7--->8------------------------------
    g----------------------------------9-"9"---------6>(7)vvvvvvv-----2>(4)>2vvv-
    d----------------------------------------------------------------------------
    a----------------------------------------------------------------------------
    e----------------------------------------------------------------------------

    e5 d g
    e---------------------------------------3--3---3---3---3---3---3-------
    b-----------------------------------0---3--3---3---3---3---3---3-------
    g-------------0-------2>(4)---------0----------------------------------
    d-----2p0--2-----2-----------0------0----------------------------------
    a-----------------------------------2----------------------------------
    e-----------------------------------3----------------------------------

    e5 c
    e---------15vvvvv---12---------------12-14-15>(17)--17>(19)====>17>15--17vvvv
    b---15>17---------------15>(17)vvv-------------------------------------------
    g----------------------------------------------------------------------------
    d----------------------------------------------------------------------------
    a----------------------------------------------------------------------------
    e----------------------------------------------------------------------------

    e5 d e5
    e--15---17---17>(19)===>17--15>12-15>0vvvvvvvv-------------------------------
    b-----------------------------------------------15>(17)vvvvvvvvv-15>12--15vvv
    g----------------------------------------------------------------------------
    d----------------------------------------------------------------------------
    a----------------------------------------------------------------------------
    e----------------------------------------------------------------------------

    d g
    e----------------------------------------------------------------------------
    b--15>12--12\--------------------------------------15/17\15--15/17--0-8-0-3-0
    g--------------14>(16)===>14-14>12>14>12vvvvvvvvv----------------------------
    d----------------------------------------------------------------------------
    a----------------------------------------------------------------------------
    e----------------------------------------------------------------------------

    e5
    e---------------------------------------------------------
    b---------------------------------------------------------
    g-------3--------------------2>(4)>2>0--------------------
    d-----------2>0----------2-----------------2vvvvvvvv------
    a-----------------2>0-------------------------------------
    e---------------------------------------------------------

    c e5
    e-------------------------------------------------------------------------
    b----10vvvvvvvvvvvv----10/12--12vvvvvvvvvvv---10>(12)====>10>8--10vvvv----
    g-------------------------------------------------------------------------
    d-------------------------------------------------------------------------
    a-------------------------------------------------------------------------
    e-------------------------------------------------------------------------

    d e5 d g
    e-----------10--------------------------------------------------------------
    b---8---10------10>(12)vvvvvvvvv--10>(12)==>10>8---10>8\7-\/-\/-\/--8-8vvvvv
    g---------------------------------------------------------------------------
    d---------------------------------------------------------------------------
    a---------------------------------------------------------------------------
    e---------------------------------------------------------------------------

    e5
    e-------15>12------14>12--------15>12-------14>12------15>(17)vvvvv--
    b----0---------12----------12-----------12---------12----------------
    g--------------------------------------------------------------------
    d--------------------------------------------------------------------
    a--------------------------------------------------------------------
    e--------------------------------------------------------------------

    c e5
    e---15>14--14>(15)>14--------------------------------------------------------
    b----------------------15------------12------15vvvvv---12>15>12--------------
    g----------------------------14vvv-------14----------------------14>12vvvvv--
    d----------------------------------------------------------------------------
    a----------------------------------------------------------------------------
    e----------------------------------------------------------------------------

    d
    e--------------------------------------------
    b--------------------------------------------
    g--------2vvvvvvv----------------------------
    d-------------------0>2>0--------------------
    a--------------------------------0-----------
    e---------------------------3---------0\-----

    (soloda nelerden bahsettiğini birazdan frackman açıklayacak.)

    uyarı: boys and girls, please don't try this at home, it is very very useless..
24 entry daha